999
dxfrw 0.6.3
  0
SECTION
  2
HEADER
  9
$ACADVER
  1
AC1021
  9
$DWGCODEPAGE
  3
ANSI_1252
  9
$INSBASE
 10
0
 20
0
 30
0
  9
$EXTMIN
 10
-908.3
 20
-483.4000000000008
 30
0
  9
$EXTMAX
 10
1100
 20
1383.400000000001
 30
0
  9
$LIMMIN
 10
0
 20
0
  9
$LIMMAX
 10
420
 20
297
  9
$ORTHOMODE
 70
    0
  9
$REGENMODE
 70
    1
  9
$FILLMODE
 70
    1
  9
$QTEXTMODE
 70
    0
  9
$MIRRTEXT
 70
    0
  9
$LTSCALE
 40
1
  9
$ATTMODE
 70
    0
  9
$TEXTSIZE
 40
2.5
  9
$TRACEWID
 40
15.68
  9
$TEXTSTYLE
  7
STANDARD
  9
$CLAYER
  8
0
  9
$CELTYPE
  6
BYLAYER
  9
$CECOLOR
 62
  256
  9
$CELTSCALE
 40
1
  9
$DISPSILH
 70
    0
  9
$DIMSCALE
 40
2.5
  9
$DIMASZ
 40
2.5
  9
$DIMEXO
 40
0.625
  9
$DIMDLI
 40
3.75
  9
$DIMRND
 40
0
  9
$DIMDLE
 40
0
  9
$DIMEXE
 40
1.25
  9
$DIMTP
 40
0
  9
$DIMTM
 40
0
  9
$DIMTXT
 40
2.5
  9
$DIMCEN
 40
2.5
  9
$DIMTSZ
 40
0
  9
$DIMTOL
 70
    0
  9
$DIMLIM
 70
    0
  9
$DIMTIH
 70
    0
  9
$DIMTOH
 70
    0
  9
$DIMSE1
 70
    0
  9
$DIMSE2
 70
    0
  9
$DIMTAD
 70
    1
  9
$DIMZIN
 70
    8
  9
$DIMBLK
  1

  9
$DIMASO
 70
    1
  9
$DIMSHO
 70
    1
  9
$DIMPOST
  1

  9
$DIMAPOST
  1

  9
$DIMALT
 70
    0
  9
$DIMALTD
 70
    3
  9
$DIMALTF
 40
0.03937
  9
$DIMLFAC
 40
1
  9
$DIMTOFL
 70
    1
  9
$DIMTVP
 40
0
  9
$DIMTIX
 70
    0
  9
$DIMSOXD
 70
    0
  9
$DIMSAH
 70
    0
  9
$DIMBLK1
  1

  9
$DIMBLK2
  1

  9
$DIMSTYLE
  2
Standard
  9
$DIMCLRD
 70
    0
  9
$DIMCLRE
 70
    0
  9
$DIMCLRT
 70
    0
  9
$DIMTFAC
 40
1
  9
$DIMGAP
 40
0.625
  9
$DIMJUST
 70
    0
  9
$DIMSD1
 70
    0
  9
$DIMSD2
 70
    0
  9
$DIMTOLJ
 70
    0
  9
$DIMTZIN
 70
    8
  9
$DIMALTZ
 70
    0
  9
$DIMALTTZ
 70
    0
  9
$DIMUPT
 70
    0
  9
$DIMDEC
 70
    2
  9
$DIMTDEC
 70
    2
  9
$DIMALTU
 70
    2
  9
$DIMALTTD
 70
    3
  9
$DIMTXSTY
  7
STANDARD
  9
$DIMAUNIT
 70
    0
  9
$DIMADEC
 70
    0
  9
$DIMALTRND
 40
0
  9
$DIMAZIN
 70
    0
  9
$DIMDSEP
 70
   44
  9
$DIMATFIT
 70
    3
  9
$DIMFRAC
 70
    0
  9
$DIMLDRBLK
  1
STANDARD
  9
$DIMLUNIT
 70
    2
  9
$DIMLWD
 70
   -2
  9
$DIMLWE
 70
   -2
  9
$DIMTMOVE
 70
    0
  9
$DIMFXL
 40
1
  9
$DIMFXLON
 70
    0
  9
$DIMJOGANG
 40
0.7854
  9
$DIMTFILL
 70
    0
  9
$DIMTFILLCLR
 70
    0
  9
$DIMARCSYM
 70
    0
  9
$DIMLTYPE
  6

  9
$DIMLTEX1
  6

  9
$DIMLTEX2
  6

  9
$LUNITS
 70
    2
  9
$LUPREC
 70
    4
  9
$SKETCHINC
 40
1
  9
$FILLETRAD
 40
0
  9
$AUNITS
 70
    0
  9
$AUPREC
 70
    2
  9
$MENU
  1
.
  9
$ELEVATION
 40
0
  9
$PELEVATION
 40
0
  9
$THICKNESS
 40
0
  9
$LIMCHECK
 70
    0
  9
$CHAMFERA
 40
0
  9
$CHAMFERB
 40
0
  9
$CHAMFERC
 40
0
  9
$CHAMFERD
 40
0
  9
$SKPOLY
 70
    0
  9
$USRTIMER
 70
    1
  9
$ANGBASE
 50
0
  9
$ANGDIR
 70
    0
  9
$PDMODE
 70
   34
  9
$PDSIZE
 40
0
  9
$PLINEWID
 40
0
  9
$SPLFRAME
 70
    0
  9
$SPLINETYPE
 70
    2
  9
$SPLINESEGS
 70
    8
  9
$HANDSEED
  5
20000
  9
$SURFTAB1
 70
    6
  9
$SURFTAB2
 70
    6
  9
$SURFTYPE
 70
    6
  9
$SURFU
 70
    6
  9
$SURFV
 70
    6
  9
$UCSBASE
  2

  9
$UCSNAME
  2

  9
$UCSORG
 10
0
 20
0
 30
0
  9
$UCSXDIR
 10
1
 20
0
 30
0
  9
$UCSYDIR
 10
0
 20
1
 30
0
  9
$UCSORTHOREF
  2

  9
$UCSORTHOVIEW
 70
    0
  9
$UCSORGTOP
 10
0
 20
0
 30
0
  9
$UCSORGBOTTOM
 10
0
 20
0
 30
0
  9
$UCSORGLEFT
 10
0
 20
0
 30
0
  9
$UCSORGRIGHT
 10
0
 20
0
 30
0
  9
$UCSORGFRONT
 10
0
 20
0
 30
0
  9
$UCSORGBACK
 10
0
 20
0
 30
0
  9
$PUCSBASE
  2

  9
$PUCSNAME
  2

  9
$PUCSORG
 10
0
 20
0
 30
0
  9
$PUCSXDIR
 10
1
 20
0
 30
0
  9
$PUCSYDIR
 10
0
 20
1
 30
0
  9
$PUCSORTHOREF
  2

  9
$PUCSORTHOVIEW
 70
    0
  9
$PUCSORGTOP
 10
0
 20
0
 30
0
  9
$PUCSORGBOTTOM
 10
0
 20
0
 30
0
  9
$PUCSORGLEFT
 10
0
 20
0
 30
0
  9
$PUCSORGRIGHT
 10
0
 20
0
 30
0
  9
$PUCSORGFRONT
 10
0
 20
0
 30
0
  9
$PUCSORGBACK
 10
0
 20
0
 30
0
  9
$USERI1
 70
    0
  9
$USERI2
 70
    0
  9
$USERI3
 70
    0
  9
$USERI4
 70
    0
  9
$USERI5
 70
    0
  9
$USERR1
 40
0
  9
$USERR2
 40
0
  9
$USERR3
 40
0
  9
$USERR4
 40
0
  9
$USERR5
 40
0
  9
$WORLDVIEW
 70
    1
  9
$SHADEDGE
 70
    3
  9
$SHADEDIF
 70
   70
  9
$TILEMODE
 70
    1
  9
$MAXACTVP
 70
   64
  9
$PINSBASE
 10
0
 20
0
 30
0
  9
$PLIMCHECK
 70
    0
  9
$PEXTMIN
 10
0
 20
0
 30
0
  9
$PEXTMAX
 10
0
 20
0
 30
0
  9
$SNAPSTYLE
 70
    0
  9
$PLIMMIN
 10
0
 20
0
  9
$PLIMMAX
 10
210
 20
297
  9
$UNITMODE
 70
    0
  9
$VISRETAIN
 70
    1
  9
$PLINEGEN
 70
    0
  9
$PSLTSCALE
 70
    1
  9
$TREEDEPTH
 70
 3020
  9
$CMLSTYLE
  2
Standard
  9
$CMLJUST
 70
    0
  9
$CMLSCALE
 40
20
  9
$PROXYGRAPHICS
 70
    1
  9
$MEASUREMENT
 70
    1
  9
$CELWEIGHT
370
   -1
  9
$ENDCAPS
280
    0
  9
$JOINSTYLE
280
    0
  9
$LWDISPLAY
290
    0
  9
$INSUNITS
 70
    1
  9
$HYPERLINKBASE
  1

  9
$STYLESHEET
  1

  9
$XEDIT
290
    1
  9
$CEPSNTYPE
380
    0
  9
$PSTYLEMODE
290
    1
  9
$EXTNAMES
290
    1
  9
$PSVPSCALE
 40
1
  9
$OLESTARTUP
290
    0
  9
$SORTENTS
280
  127
  9
$INDEXCTL
280
    0
  9
$HIDETEXT
280
    1
  9
$XCLIPFRAME
290
    0
  9
$HALOGAP
280
    0
  9
$OBSCOLOR
 70
  257
  9
$OBSLTYPE
280
    0
  9
$INTERSECTIONDISPLAY
280
    0
  9
$INTERSECTIONCOLOR
 70
  257
  9
$DIMASSOC
280
    1
  9
$PROJECTNAME
  1

  9
$CAMERADISPLAY
290
    0
  9
$LENSLENGTH
 40
50
  9
$CAMERAHEIGHT
 40
0
  9
$STEPSPERSEC
 40
2
  9
$STEPSIZE
 40
50
  9
$3DDWFPREC
 40
2
  9
$PSOLWIDTH
 40
5
  9
$PSOLHEIGHT
 40
80
  9
$LOFTANG1
 40
1.570796326794897
  9
$LOFTANG2
 40
1.570796326794897
  9
$LOFTMAG1
 40
0
  9
$LOFTMAG2
 40
0
  9
$LOFTPARAM
 70
    7
  9
$LOFTNORMALS
280
    1
  9
$LATITUDE
 40
1
  9
$LONGITUDE
 40
1
  9
$NORTHDIRECTION
 40
0
  9
$TIMEZONE
 70
-8000
  9
$LIGHTGLYPHDISPLAY
280
    1
  9
$TILEMODELIGHTSYNCH
280
    1
  9
$SOLIDHIST
280
    1
  9
$SHOWHIST
280
    1
  9
$DWFFRAME
280
    2
  9
$DGNFRAME
280
    0
  9
$REALWORLDSCALE
290
    1
  9
$INTERFERECOLOR
 62
    1
  9
$CSHADOW
280
    0
  9
$SHADOWPLANELOCATION
 40
0
  0
ENDSEC
  0
SECTION
  2
CLASSES
  0
ENDSEC
  0
SECTION
  2
TABLES
  0
TABLE
  2
VPORT
  5
8
330
0
100
AcDbSymbolTable
 70
    1
  0
VPORT
  5
31
330
2
100
AcDbSymbolTableRecord
100
AcDbViewportTableRecord
  2
*ACTIVE
 70
    0
 10
0
 20
0
 11
1
 21
1
 12
848.4249697177356
 22
747.5720758434134
 13
0
 23
0
 14
10
 24
10
 15
10
 25
10
 16
0
 26
0
 36
1
 17
0
 27
0
 37
0
 40
2110.346804320192
 41
1.722819593787336
 42
50
 43
0
 44
0
 50
0
 51
0
 71
    0
 72
  100
 73
    1
 74
    3
 75
    0
 76
    1
 77
    0
 78
    0
281
    0
 65
    1
110
0
120
0
130
0
111
1
121
0
131
0
112
0
122
1
132
0
 79
    0
146
0
348
10020
 60
    7
 61
    5
292
1
282
    1
141
0
142
0
 63
  250
421
3358443
  0
ENDTAB
  0
TABLE
  2
LTYPE
  5
5
330
0
100
AcDbSymbolTable
 70
    4
  0
LTYPE
  5
14
330
5
100
AcDbSymbolTableRecord
100
AcDbLinetypeTableRecord
  2
ByBlock
 70
    0
  3

 72
   65
 73
    0
 40
0
  0
LTYPE
  5
15
330
5
100
AcDbSymbolTableRecord
100
AcDbLinetypeTableRecord
  2
ByLayer
 70
    0
  3

 72
   65
 73
    0
 40
0
  0
LTYPE
  5
16
330
5
100
AcDbSymbolTableRecord
100
AcDbLinetypeTableRecord
  2
Continuous
 70
    0
  3
Solid line
 72
   65
 73
    0
 40
0
  0
LTYPE
  5
32
330
5
100
AcDbSymbolTableRecord
100
AcDbLinetypeTableRecord
  2
DOT
 70
    0
  3
Dot . . . . . . . . . . . . . . . . . . . . . .
 72
   65
 73
    2
 40
6.35
 49
0
 74
    0
 49
-6.35
 74
    0
  0
LTYPE
  5
33
330
5
100
AcDbSymbolTableRecord
100
AcDbLinetypeTableRecord
  2
DOTTINY
 70
    0
  3
Dot (.15x) .....................................
 72
   65
 73
    2
 40
0.9525
 49
0
 74
    0
 49
-0.9525
 74
    0
  0
LTYPE
  5
34
330
5
100
AcDbSymbolTableRecord
100
AcDbLinetypeTableRecord
  2
DOT2
 70
    0
  3
Dot (.5x) .....................................
 72
   65
 73
    2
 40
3.175
 49
0
 74
    0
 49
-3.175
 74
    0
  0
LTYPE
  5
35
330
5
100
AcDbSymbolTableRecord
100
AcDbLinetypeTableRecord
  2
DOTX2
 70
    0
  3
Dot (2x) .  .  .  .  .  .  .  .  .  .  .  .  .
 72
   65
 73
    2
 40
12.7
 49
0
 74
    0
 49
-12.7
 74
    0
  0
LTYPE
  5
36
330
5
100
AcDbSymbolTableRecord
100
AcDbLinetypeTableRecord
  2
DASHED
 70
    0
  3
Dashed _ _ _ _ _ _ _ _ _ _ _ _ _ _ _ _ _
 72
   65
 73
    2
 40
19.05
 49
12.7
 74
    0
 49
-6.35
 74
    0
  0
LTYPE
  5
37
330
5
100
AcDbSymbolTableRecord
100
AcDbLinetypeTableRecord
  2
DASHEDTINY
 70
    0
  3
Dashed (.15x) _ _ _ _ _ _ _ _ _ _ _ _ _ _ _ _ _
 72
   65
 73
    2
 40
2.8575
 49
1.905
 74
    0
 49
-0.9525
 74
    0
  0
LTYPE
  5
38
330
5
100
AcDbSymbolTableRecord
100
AcDbLinetypeTableRecord
  2
DASHED2
 70
    0
  3
Dashed (.5x) _ _ _ _ _ _ _ _ _ _ _ _ _ _ _ _ _
 72
   65
 73
    2
 40
9.524999999999999
 49
6.35
 74
    0
 49
-3.175
 74
    0
  0
LTYPE
  5
39
330
5
100
AcDbSymbolTableRecord
100
AcDbLinetypeTableRecord
  2
DASHEDX2
 70
    0
  3
Dashed (2x) ____  ____  ____  ____  ____  ___
 72
   65
 73
    2
 40
38.09999999999999
 49
25.4
 74
    0
 49
-12.7
 74
    0
  0
LTYPE
  5
3A
330
5
100
AcDbSymbolTableRecord
100
AcDbLinetypeTableRecord
  2
DASHDOT
 70
    0
  3
Dash dot __ . __ . __ . __ . __ . __ . __ . __
 72
   65
 73
    4
 40
25.4
 49
12.7
 74
    0
 49
-6.35
 74
    0
 49
0
 74
    0
 49
-6.35
 74
    0
  0
LTYPE
  5
3B
330
5
100
AcDbSymbolTableRecord
100
AcDbLinetypeTableRecord
  2
DASHDOTTINY
 70
    0
  3
Dash dot (.15x) _._._._._._._._._._._._._._._.
 72
   65
 73
    4
 40
3.81
 49
1.905
 74
    0
 49
-0.9525
 74
    0
 49
0
 74
    0
 49
-0.9525
 74
    0
  0
LTYPE
  5
3C
330
5
100
AcDbSymbolTableRecord
100
AcDbLinetypeTableRecord
  2
DASHDOT2
 70
    0
  3
Dash dot (.5x) _._._._._._._._._._._._._._._.
 72
   65
 73
    4
 40
12.7
 49
6.35
 74
    0
 49
-3.175
 74
    0
 49
0
 74
    0
 49
-3.175
 74
    0
  0
LTYPE
  5
3D
330
5
100
AcDbSymbolTableRecord
100
AcDbLinetypeTableRecord
  2
DASHDOTX2
 70
    0
  3
Dash dot (2x) ____  .  ____  .  ____  .  ___
 72
   65
 73
    4
 40
50.8
 49
25.4
 74
    0
 49
-12.7
 74
    0
 49
0
 74
    0
 49
-12.7
 74
    0
  0
LTYPE
  5
3E
330
5
100
AcDbSymbolTableRecord
100
AcDbLinetypeTableRecord
  2
DIVIDE
 70
    0
  3
Divide ____ . . ____ . . ____ . . ____ . . ____
 72
   65
 73
    6
 40
31.75
 49
12.7
 74
    0
 49
-6.35
 74
    0
 49
0
 74
    0
 49
-6.35
 74
    0
 49
0
 74
    0
 49
-6.35
 74
    0
  0
LTYPE
  5
3F
330
5
100
AcDbSymbolTableRecord
100
AcDbLinetypeTableRecord
  2
DIVIDETINY
 70
    0
  3
Divide (.15x) __..__..__..__..__..__..__..__.._
 72
   65
 73
    6
 40
4.7625
 49
1.905
 74
    0
 49
-0.9525
 74
    0
 49
0
 74
    0
 49
-0.9525
 74
    0
 49
0
 74
    0
 49
-0.9525
 74
    0
  0
LTYPE
  5
40
330
5
100
AcDbSymbolTableRecord
100
AcDbLinetypeTableRecord
  2
DIVIDE2
 70
    0
  3
Divide (.5x) __..__..__..__..__..__..__..__.._
 72
   65
 73
    6
 40
15.875
 49
6.35
 74
    0
 49
-3.175
 74
    0
 49
0
 74
    0
 49
-3.175
 74
    0
 49
0
 74
    0
 49
-3.175
 74
    0
  0
LTYPE
  5
41
330
5
100
AcDbSymbolTableRecord
100
AcDbLinetypeTableRecord
  2
DIVIDEX2
 70
    0
  3
Divide (2x) ________  .  .  ________  .  .  _
 72
   65
 73
    6
 40
63.5
 49
25.4
 74
    0
 49
-12.7
 74
    0
 49
0
 74
    0
 49
-12.7
 74
    0
 49
0
 74
    0
 49
-12.7
 74
    0
  0
LTYPE
  5
42
330
5
100
AcDbSymbolTableRecord
100
AcDbLinetypeTableRecord
  2
BORDER
 70
    0
  3
Border __ __ . __ __ . __ __ . __ __ . __ __ .
 72
   65
 73
    6
 40
44.45
 49
12.7
 74
    0
 49
-6.35
 74
    0
 49
12.7
 74
    0
 49
-6.35
 74
    0
 49
0
 74
    0
 49
-6.35
 74
    0
  0
LTYPE
  5
43
330
5
100
AcDbSymbolTableRecord
100
AcDbLinetypeTableRecord
  2
BORDERTINY
 70
    0
  3
Border (.15x) __.__.__.__.__.__.__.__.__.__.__.
 72
   65
 73
    6
 40
6.6675
 49
1.905
 74
    0
 49
-0.9525
 74
    0
 49
1.905
 74
    0
 49
-0.9525
 74
    0
 49
0
 74
    0
 49
-0.9525
 74
    0
  0
LTYPE
  5
44
330
5
100
AcDbSymbolTableRecord
100
AcDbLinetypeTableRecord
  2
BORDER2
 70
    0
  3
Border (.5x) __.__.__.__.__.__.__.__.__.__.__.
 72
   65
 73
    6
 40
22.225
 49
6.35
 74
    0
 49
-3.175
 74
    0
 49
6.35
 74
    0
 49
-3.175
 74
    0
 49
0
 74
    0
 49
-3.175
 74
    0
  0
LTYPE
  5
45
330
5
100
AcDbSymbolTableRecord
100
AcDbLinetypeTableRecord
  2
BORDERX2
 70
    0
  3
Border (2x) ____  ____  .  ____  ____  .  ___
 72
   65
 73
    6
 40
88.89999999999999
 49
25.4
 74
    0
 49
-12.7
 74
    0
 49
25.4
 74
    0
 49
-12.7
 74
    0
 49
0
 74
    0
 49
-12.7
 74
    0
  0
LTYPE
  5
46
330
5
100
AcDbSymbolTableRecord
100
AcDbLinetypeTableRecord
  2
CENTER
 70
    0
  3
Center ____ _ ____ _ ____ _ ____ _ ____ _ ____
 72
   65
 73
    4
 40
50.8
 49
31.75
 74
    0
 49
-6.35
 74
    0
 49
6.35
 74
    0
 49
-6.35
 74
    0
  0
LTYPE
  5
47
330
5
100
AcDbSymbolTableRecord
100
AcDbLinetypeTableRecord
  2
CENTERTINY
 70
    0
  3
Center (.15x) ___ _ ___ _ ___ _ ___ _ ___ _ ___
 72
   65
 73
    4
 40
7.619999999999999
 49
4.7625
 74
    0
 49
-0.9525
 74
    0
 49
0.9525
 74
    0
 49
-0.9525
 74
    0
  0
LTYPE
  5
48
330
5
100
AcDbSymbolTableRecord
100
AcDbLinetypeTableRecord
  2
CENTER2
 70
    0
  3
Center (.5x) ___ _ ___ _ ___ _ ___ _ ___ _ ___
 72
   65
 73
    4
 40
28.575
 49
19.05
 74
    0
 49
-3.175
 74
    0
 49
3.175
 74
    0
 49
-3.175
 74
    0
  0
LTYPE
  5
49
330
5
100
AcDbSymbolTableRecord
100
AcDbLinetypeTableRecord
  2
CENTERX2
 70
    0
  3
Center (2x) ________  __  ________  __  _____
 72
   65
 73
    4
 40
101.6
 49
63.5
 74
    0
 49
-12.7
 74
    0
 49
12.7
 74
    0
 49
-12.7
 74
    0
  0
ENDTAB
  0
TABLE
  2
LAYER
  5
2
330
0
100
AcDbSymbolTable
 70
    1
  0
LAYER
  5
10
330
2
100
AcDbSymbolTableRecord
100
AcDbLayerTableRecord
  2
0
 70
    0
 62
    7
  6
CONTINUOUS
370
    0
390
F
  0
LAYER
  5
4A
330
2
100
AcDbSymbolTableRecord
100
AcDbLayerTableRecord
  2
back_outsideCutPath
 70
    0
 62
    7
  6
CONTINUOUS
370
   -3
390
F
  0
LAYER
  5
4B
330
2
100
AcDbSymbolTableRecord
100
AcDbLayerTableRecord
  2
bottom_outsideCutPath
 70
    0
 62
    7
  6
CONTINUOUS
370
   -3
390
F
  0
LAYER
  5
4C
330
2
100
AcDbSymbolTableRecord
100
AcDbLayerTableRecord
  2
front_outsideCutPath
 70
    0
 62
    7
  6
CONTINUOUS
370
   -3
390
F
  0
LAYER
  5
4D
330
2
100
AcDbSymbolTableRecord
100
AcDbLayerTableRecord
  2
left_outsideCutPath
 70
    0
 62
    7
  6
CONTINUOUS
370
   -3
390
F
  0
LAYER
  5
4E
330
2
100
AcDbSymbolTableRecord
100
AcDbLayerTableRecord
  2
right_outsideCutPath
 70
    0
 62
    7
  6
CONTINUOUS
370
   -3
390
F
  0
LAYER
  5
4F
330
2
100
AcDbSymbolTableRecord
100
AcDbLayerTableRecord
  2
top_outsideCutPath
 70
    0
 62
    7
  6
CONTINUOUS
370
   -3
390
F
  0
ENDTAB
  0
TABLE
  2
STYLE
  5
3
330
0
100
AcDbSymbolTable
 70
    3
  0
STYLE
  5
50
330
2
100
AcDbSymbolTableRecord
100
AcDbTextStyleTableRecord
  2
Standard
 70
    0
 40
0
 41
1
 50
0
 71
    0
 42
1
  3
txt
  4

  0
ENDTAB
  0
TABLE
  2
VIEW
  5
6
330
0
100
AcDbSymbolTable
 70
    0
  0
ENDTAB
  0
TABLE
  2
UCS
  5
7
330
0
100
AcDbSymbolTable
 70
    0
  0
ENDTAB
  0
TABLE
  2
APPID
  5
9
330
0
100
AcDbSymbolTable
 70
    1
  0
APPID
  5
12
330
9
100
AcDbSymbolTableRecord
100
AcDbRegAppTableRecord
  2
ACAD
 70
    0
  0
APPID
  5
51
330
9
100
AcDbSymbolTableRecord
100
AcDbRegAppTableRecord
  2
LibreCad
 70
    0
  0
ENDTAB
  0
TABLE
  2
DIMSTYLE
  5
A
330
0
100
AcDbSymbolTable
 70
    1
100
AcDbDimStyleTable
 71
    1
  0
DIMSTYLE
105
52
330
A
100
AcDbSymbolTableRecord
100
AcDbDimStyleTableRecord
  2
Standard
 70
    0
 40
1
 41
2.5
 42
0.625
 43
0.38
 44
1.25
 45
0
 46
0
 47
0
 48
0
 49
1
140
2.5
141
0.09
142
2.5
143
25.4
144
1
145
0
146
1
147
0.625
148
0
 71
    0
 72
    0
 73
    0
 74
    1
 75
    0
 76
    0
 77
    0
 78
    1
 79
    0
170
    0
171
    2
172
    0
173
    0
174
    0
175
    0
176
    0
177
    0
178
    0
179
    0
271
    2
272
    4
273
    2
274
    2
275
    0
276
    0
277
    2
278
    0
279
    0
280
    0
281
    0
282
    0
283
    1
284
    0
285
    0
286
    0
288
    0
289
    3
340
standard
341

371
   -2
372
   -2
  0
ENDTAB
  0
TABLE
  2
BLOCK_RECORD
  5
1
330
0
100
AcDbSymbolTable
 70
    2
  0
BLOCK_RECORD
  5
1F
330
1
100
AcDbSymbolTableRecord
100
AcDbBlockTableRecord
  2
*Model_Space
 70
    0
280
    1
281
    0
  0
BLOCK_RECORD
  5
1E
330
1
100
AcDbSymbolTableRecord
100
AcDbBlockTableRecord
  2
*Paper_Space
 70
    0
280
    1
281
    0
  0
ENDTAB
  0
ENDSEC
  0
SECTION
  2
BLOCKS
  0
BLOCK
  5
20
330
1F
100
AcDbEntity
  8
0
100
AcDbBlockBegin
  2
*Model_Space
 70
    0
 10
0
 20
0
 30
0
  3
*Model_Space
  1

  0
ENDBLK
  5
21
330
1F
100
AcDbEntity
  8
0
100
AcDbBlockEnd
  0
BLOCK
  5
1C
330
1B
100
AcDbEntity
  8
0
100
AcDbBlockBegin
  2
*Paper_Space
 70
    0
 10
0
 20
0
 30
0
  3
*Paper_Space
  1

  0
ENDBLK
  5
1D
330
1F
100
AcDbEntity
  8
0
100
AcDbBlockEnd
  0
ENDSEC
  0
SECTION
  2
ENTITIES
  0
LINE
  5
53
100
AcDbEntity
  8
back_outsideCutPath
  6
ByLayer
 62
  256
370
   -1
100
AcDbLine
 10
391.7
 20
353.9292892999999
 11
391.7
 21
546.0707107000001
  0
LINE
  5
54
100
AcDbEntity
  8
back_outsideCutPath
  6
ByLayer
 62
  256
370
   -1
100
AcDbLine
 10
196.0707107
 20
691.7
 11
3.929289299999965
 21
691.7
  0
LINE
  5
55
100
AcDbEntity
  8
back_outsideCutPath
  6
ByLayer
 62
  256
370
   -1
100
AcDbLine
 10
-191.7
 20
546.0707107000001
 11
-191.7
 21
353.9292893
  0
ARC
  5
56
100
AcDbEntity
  8
back_outsideCutPath
  6
ByLayer
 62
  256
370
   -1
100
AcDbCircle
 10
-193.1646447
 20
352.4646447
 40
2.0713203
100
AcDbArc
 50
225.000002
 51
44.99999799999999
  0
ARC
  5
57
100
AcDbEntity
  8
back_outsideCutPath
  6
ByLayer
 62
  256
370
   -1
100
AcDbCircle
 10
-193.1646447
 20
547.5353553
 40
2.0713203
100
AcDbArc
 50
315.000002
 51
134.999998
  0
ARC
  5
58
100
AcDbEntity
  8
back_outsideCutPath
  6
ByLayer
 62
  256
370
   -1
100
AcDbCircle
 10
2.464644700000036
 20
693.1646447000001
 40
2.0713203
100
AcDbArc
 50
135.000002
 51
314.999998
  0
ARC
  5
59
100
AcDbEntity
  8
back_outsideCutPath
  6
ByLayer
 62
  256
370
   -1
100
AcDbCircle
 10
197.5353553
 20
693.1646447000001
 40
2.0713203
100
AcDbArc
 50
225.000002
 51
44.99999799999999
  0
ARC
  5
5A
100
AcDbEntity
  8
back_outsideCutPath
  6
ByLayer
 62
  256
370
   -1
100
AcDbCircle
 10
393.1646447000001
 20
547.5353553
 40
2.0713203
100
AcDbArc
 50
45.00000200000001
 51
224.999998
  0
ARC
  5
5B
100
AcDbEntity
  8
back_outsideCutPath
  6
ByLayer
 62
  256
370
   -1
100
AcDbCircle
 10
393.1646447000001
 20
352.4646447
 40
2.0713203
100
AcDbArc
 50
135.000002
 51
314.999998
  0
LINE
  5
5C
100
AcDbEntity
  8
0
  6
ByLayer
 62
  256
370
   -1
100
AcDbLine
 10
410
 20
710
 11
-209.9999999999999
 21
710
  0
LINE
  5
5D
100
AcDbEntity
  8
0
  6
ByLayer
 62
  256
370
   -1
100
AcDbLine
 10
-209.9999999999999
 20
710
 11
-210
 21
190
  0
LINE
  5
5E
100
AcDbEntity
  8
0
  6
ByLayer
 62
  256
370
   -1
100
AcDbLine
 10
410
 20
190
 11
410
 21
710
  0
LINE
  5
5F
100
AcDbEntity
  8
0
  6
ByLayer
 62
  256
370
   -1
100
AcDbLine
 10
-210
 20
190
 11
410
 21
190
  0
LINE
  5
60
100
AcDbEntity
  8
0
  6
ByLayer
 62
  256
370
   -1
100
AcDbLine
 10
196.0707107
 20
700
 11
3.929289299999968
 21
700
  0
ARC
  5
61
100
AcDbEntity
  8
back_outsideCutPath
  6
ByLayer
 62
  256
370
   -1
100
AcDbCircle
 10
2.464644696880129
 20
698.5353552982983
 40
2.0713203
100
AcDbArc
 50
45.00000206656866
 51
224.9999980665687
  0
ARC
  5
62
100
AcDbEntity
  8
back_outsideCutPath
  6
ByLayer
 62
  256
370
   -1
100
AcDbCircle
 10
197.5353552968801
 20
698.5353555249396
 40
2.0713203
100
AcDbArc
 50
315.0000020665686
 51
134.9999980665687
  0
LINE
  5
63
100
AcDbEntity
  8
0
  6
ByLayer
 62
  256
370
   -1
100
AcDbLine
 10
198.9999999798469
 20
697.0707109476277
 11
198.9999999812651
 21
694.6292892790136
  0
LINE
  5
64
100
AcDbEntity
  8
0
  6
ByLayer
 62
  256
370
   -1
100
AcDbLine
 10
1.000000017316719
 20
697.070710717583
 11
1.000000018734941
 21
694.6292892790136
  0
LINE
  5
65
100
AcDbEntity
  8
0
  6
ByLayer
 62
  256
370
   -1
100
AcDbLine
 10
-200
 20
546.0707107000001
 11
-200
 21
353.9292893
  0
ARC
  5
66
100
AcDbEntity
  8
back_outsideCutPath
  6
ByLayer
 62
  256
370
   -1
100
AcDbCircle
 10
-198.5353553
 20
352.4646447
 40
2.0713203
100
AcDbArc
 50
135.000002
 51
314.999998
  0
ARC
  5
67
100
AcDbEntity
  8
back_outsideCutPath
  6
ByLayer
 62
  256
370
   -1
100
AcDbCircle
 10
-198.5353553
 20
547.5353553
 40
2.0713203
100
AcDbArc
 50
45.00000200000001
 51
224.999998
  0
LINE
  5
68
100
AcDbEntity
  8
0
  6
ByLayer
 62
  256
370
   -1
100
AcDbLine
 10
-197.0707107209864
 20
351.0000000187349
 11
-194.6292894835166
 21
351.0000002232379
  0
LINE
  5
69
100
AcDbEntity
  8
0
  6
ByLayer
 62
  256
370
   -1
100
AcDbLine
 10
-197.0707105164834
 20
548.9999997767621
 11
-194.6292892790136
 21
548.9999999812651
  0
LINE
  5
6A
100
AcDbEntity
  8
0
  6
ByLayer
 62
  256
370
   -1
100
AcDbLine
 10
400.0000000000001
 20
353.9292892999999
 11
400.0000000000001
 21
546.0707107000001
  0
ARC
  5
6B
100
AcDbEntity
  8
back_outsideCutPath
  6
ByLayer
 62
  256
370
   -1
100
AcDbCircle
 10
398.5353553
 20
547.5353553
 40
2.0713203
100
AcDbArc
 50
315.000002
 51
134.999998
  0
ARC
  5
6C
100
AcDbEntity
  8
back_outsideCutPath
  6
ByLayer
 62
  256
370
   -1
100
AcDbCircle
 10
398.5353553
 20
352.4646447000001
 40
2.0713203
100
AcDbArc
 50
225.000002
 51
44.99999799999999
  0
LINE
  5
6D
100
AcDbEntity
  8
0
  6
ByLayer
 62
  256
370
   -1
100
AcDbLine
 10
394.6292894835166
 20
548.9999997767621
 11
397.0707107209864
 21
548.9999999812651
  0
LINE
  5
6E
100
AcDbEntity
  8
0
  6
ByLayer
 62
  256
370
   -1
100
AcDbLine
 10
394.6292892790137
 20
351.0000000187349
 11
397.0707105164834
 21
351.0000002232379
  0
LINE
  5
6F
100
AcDbEntity
  8
back_outsideCutPath
  6
ByLayer
 62
  256
370
   -1
100
AcDbLine
 10
196.0707106999999
 20
208.3
 11
3.929289299999965
 21
208.3
  0
ARC
  5
70
100
AcDbEntity
  8
back_outsideCutPath
  6
ByLayer
 62
  256
370
   -1
100
AcDbCircle
 10
2.464644700000036
 20
206.8353552999999
 40
2.0713203
100
AcDbArc
 50
45.00000200000001
 51
224.999998
  0
ARC
  5
71
100
AcDbEntity
  8
back_outsideCutPath
  6
ByLayer
 62
  256
370
   -1
100
AcDbCircle
 10
197.5353553
 20
206.8353552999999
 40
2.0713203
100
AcDbArc
 50
315.000002
 51
134.999998
  0
LINE
  5
72
100
AcDbEntity
  8
0
  6
ByLayer
 62
  256
370
   -1
100
AcDbLine
 10
196.0707106999999
 20
200
 11
3.929289299999962
 21
200
  0
ARC
  5
73
100
AcDbEntity
  8
back_outsideCutPath
  6
ByLayer
 62
  256
370
   -1
100
AcDbCircle
 10
2.464644696880129
 20
201.4646447017017
 40
2.0713203
100
AcDbArc
 50
135.0000019334313
 51
314.9999979334314
  0
ARC
  5
74
100
AcDbEntity
  8
back_outsideCutPath
  6
ByLayer
 62
  256
370
   -1
100
AcDbCircle
 10
197.5353552968801
 20
201.4646444750604
 40
2.0713203
100
AcDbArc
 50
225.0000019334313
 51
44.99999793343134
  0
LINE
  5
75
100
AcDbEntity
  8
0
  6
ByLayer
 62
  256
370
   -1
100
AcDbLine
 10
198.9999999798469
 20
202.9292890523723
 11
198.9999999812651
 21
205.3707107209864
  0
LINE
  5
76
100
AcDbEntity
  8
0
  6
ByLayer
 62
  256
370
   -1
100
AcDbLine
 10
1.000000017316726
 20
202.929289282417
 11
1.000000018734933
 21
205.3707107209864
  0
LINE
  5
77
100
AcDbEntity
  8
right_outsideCutPath
  6
ByLayer
 62
  256
370
   -1
100
AcDbLine
 10
1
 20
997.0707107000001
 11
1
 21
991.7
  0
LINE
  5
78
100
AcDbEntity
  8
right_outsideCutPath
  6
ByLayer
 62
  256
370
   -1
100
AcDbLine
 10
1
 20
991.7
 11
199
 21
991.7
  0
LINE
  5
79
100
AcDbEntity
  8
right_outsideCutPath
  6
ByLayer
 62
  256
370
   -1
100
AcDbLine
 10
199
 20
991.7
 11
199
 21
997.0707107000001
  0
LINE
  5
7A
100
AcDbEntity
  8
right_outsideCutPath
  6
ByLayer
 62
  256
370
   -1
100
AcDbLine
 10
396.9999999999999
 20
1000
 11
399.9999999999999
 21
1000
  0
LINE
  5
7B
100
AcDbEntity
  8
right_outsideCutPath
  6
ByLayer
 62
  256
370
   -1
100
AcDbLine
 10
-197
 20
1383.4
 11
-200
 21
1383.4
  0
LINE
  5
7C
100
AcDbEntity
  8
right_outsideCutPath
  6
ByLayer
 62
  256
370
   -1
100
AcDbLine
 10
-191.7
 20
1287.7707107
 11
-191.7
 21
1095.6292893
  0
ARC
  5
7D
100
AcDbEntity
  8
right_outsideCutPath
  6
ByLayer
 62
  256
370
   -1
100
AcDbCircle
 10
-193.1646447000001
 20
1094.1646447
 40
2.0713203
100
AcDbArc
 50
225.000002
 51
44.99999799999999
  0
ARC
  5
7E
100
AcDbEntity
  8
right_outsideCutPath
  6
ByLayer
 62
  256
370
   -1
100
AcDbCircle
 10
-193.1646447000001
 20
1289.2353553
 40
2.0713203
100
AcDbArc
 50
315.000002
 51
134.999998
  0
ARC
  5
7F
100
AcDbEntity
  8
right_outsideCutPath
  6
ByLayer
 62
  256
370
   -1
100
AcDbCircle
 10
200.4646447
 20
998.5353553
 40
2.0713203
100
AcDbArc
 50
45.00000200000001
 51
224.999998
  0
ARC
  5
80
100
AcDbEntity
  8
right_outsideCutPath
  6
ByLayer
 62
  256
370
   -1
100
AcDbCircle
 10
-0.464644700000008
 20
998.5353553
 40
2.0713203
100
AcDbArc
 50
315.000002
 51
134.999998
  0
LINE
  5
81
100
AcDbEntity
  8
right_outsideCutPath
  6
ByLayer
 62
  256
370
   -1
100
AcDbLine
 10
410.0000000000001
 20
1383.400000000001
 11
-210
 21
1383.4
  0
LINE
  5
82
100
AcDbEntity
  8
0
  6
ByLayer
 62
  256
370
   -1
100
AcDbLine
 10
-210
 20
1383.4
 11
-209.9999999999999
 21
1000
  0
LINE
  5
83
100
AcDbEntity
  8
right_outsideCutPath
  6
ByLayer
 62
  256
370
   -1
100
AcDbLine
 10
-209.9999999999999
 20
1000
 11
-1.929289299999937
 21
1000
  0
LINE
  5
84
100
AcDbEntity
  8
right_outsideCutPath
  6
ByLayer
 62
  256
370
   -1
100
AcDbLine
 10
201.9292893000001
 20
1000
 11
410.0000000000001
 21
999.9999999999999
  0
LINE
  5
85
100
AcDbEntity
  8
0
  6
ByLayer
 62
  256
370
   -1
100
AcDbLine
 10
410.0000000000001
 20
999.9999999999999
 11
410.0000000000001
 21
1383.400000000001
  0
LINE
  5
86
100
AcDbEntity
  8
0
  6
ByLayer
 62
  256
370
   -1
100
AcDbLine
 10
-200.0000000000001
 20
1287.7707107
 11
-200.0000000000001
 21
1095.6292893
  0
ARC
  5
87
100
AcDbEntity
  8
right_outsideCutPath
  6
ByLayer
 62
  256
370
   -1
100
AcDbCircle
 10
-198.5353553
 20
1094.1646447
 40
2.0713203
100
AcDbArc
 50
135.000002
 51
314.999998
  0
ARC
  5
88
100
AcDbEntity
  8
right_outsideCutPath
  6
ByLayer
 62
  256
370
   -1
100
AcDbCircle
 10
-198.5353553
 20
1289.2353553
 40
2.0713203
100
AcDbArc
 50
45.00000200000001
 51
224.999998
  0
LINE
  5
89
100
AcDbEntity
  8
0
  6
ByLayer
 62
  256
370
   -1
100
AcDbLine
 10
-197.0707105164835
 20
1290.699999776762
 11
-194.6292892790137
 21
1290.699999981265
  0
LINE
  5
8A
100
AcDbEntity
  8
0
  6
ByLayer
 62
  256
370
   -1
100
AcDbLine
 10
-197.0707107209864
 20
1092.700000018735
 11
-194.6292892790137
 21
1092.700000018735
  0
LINE
  5
8B
100
AcDbEntity
  8
right_outsideCutPath
  6
ByLayer
 62
  256
370
   -1
100
AcDbLine
 10
391.7
 20
1287.7707107
 11
391.7
 21
1095.6292893
  0
ARC
  5
8C
100
AcDbEntity
  8
right_outsideCutPath
  6
ByLayer
 62
  256
370
   -1
100
AcDbCircle
 10
393.1646447000001
 20
1094.1646447
 40
2.0713203
100
AcDbArc
 50
135.000002
 51
314.999998
  0
ARC
  5
8D
100
AcDbEntity
  8
right_outsideCutPath
  6
ByLayer
 62
  256
370
   -1
100
AcDbCircle
 10
393.1646447000001
 20
1289.2353553
 40
2.0713203
100
AcDbArc
 50
45.00000200000001
 51
224.999998
  0
LINE
  5
8E
100
AcDbEntity
  8
0
  6
ByLayer
 62
  256
370
   -1
100
AcDbLine
 10
400.0000000000001
 20
1287.7707107
 11
400.0000000000001
 21
1095.6292893
  0
ARC
  5
8F
100
AcDbEntity
  8
right_outsideCutPath
  6
ByLayer
 62
  256
370
   -1
100
AcDbCircle
 10
398.5353553
 20
1094.1646447
 40
2.0713203
100
AcDbArc
 50
225.000002
 51
44.99999799999999
  0
ARC
  5
90
100
AcDbEntity
  8
right_outsideCutPath
  6
ByLayer
 62
  256
370
   -1
100
AcDbCircle
 10
398.5353553
 20
1289.2353553
 40
2.0713203
100
AcDbArc
 50
315.000002
 51
134.999998
  0
LINE
  5
91
100
AcDbEntity
  8
0
  6
ByLayer
 62
  256
370
   -1
100
AcDbLine
 10
397.0707105164835
 20
1290.699999776762
 11
394.6292892790137
 21
1290.699999981265
  0
LINE
  5
92
100
AcDbEntity
  8
0
  6
ByLayer
 62
  256
370
   -1
100
AcDbLine
 10
397.0707107209864
 20
1092.700000018735
 11
394.6292892790137
 21
1092.700000018735
  0
LWPOLYLINE
  5
93
100
AcDbEntity
  8
0
  6
ByLayer
 62
  256
370
   -1
100
AcDbPolyline
 90
    8
 70
    1
 43
0
 10
-32
 20
1300
 10
312
 20
1300
 42
-0.414213562373095
 10
320
 20
1292
 10
320
 20
1078
 42
-0.414213562373095
 10
312
 20
1070
 10
-32
 20
1070
 42
-0.414213562373095
 10
-40
 20
1078
 10
-40
 20
1292
 42
-0.414213562373095
  0
LINE
  5
94
100
AcDbEntity
  8
bottom_outsideCutPath
  6
ByLayer
 62
  256
370
   -1
100
AcDbLine
 10
-900
 20
200
 11
-810.2292893
 21
200
  0
LINE
  5
95
100
AcDbEntity
  8
bottom_outsideCutPath
  6
ByLayer
 62
  256
370
   -1
100
AcDbLine
 10
-807.3
 20
197.0707107000001
 11
-807.3
 21
191.7
  0
LINE
  5
96
100
AcDbEntity
  8
bottom_outsideCutPath
  6
ByLayer
 62
  256
370
   -1
100
AcDbLine
 10
-807.3
 20
191.7
 11
-609.3
 21
191.7
  0
LINE
  5
97
100
AcDbEntity
  8
bottom_outsideCutPath
  6
ByLayer
 62
  256
370
   -1
100
AcDbLine
 10
-609.3
 20
191.7
 11
-609.3
 21
197.0707107000001
  0
LINE
  5
98
100
AcDbEntity
  8
bottom_outsideCutPath
  6
ByLayer
 62
  256
370
   -1
100
AcDbLine
 10
-606.3707106999998
 20
200
 11
-516.5999999999999
 21
200
  0
LINE
  5
99
100
AcDbEntity
  8
bottom_outsideCutPath
  6
ByLayer
 62
  256
370
   -1
100
AcDbLine
 10
-516.5999999999999
 20
200
 11
-516.5999999999999
 21
339.7707107000001
  0
LINE
  5
9A
100
AcDbEntity
  8
bottom_outsideCutPath
  6
ByLayer
 62
  256
370
   -1
100
AcDbLine
 10
-513.6707107
 20
342.7
 11
-508.2999999999999
 21
342.7
  0
LINE
  5
9B
100
AcDbEntity
  8
bottom_outsideCutPath
  6
ByLayer
 62
  256
370
   -1
100
AcDbLine
 10
-508.2999999999999
 20
342.7
 11
-508.2999999999999
 21
540.7
  0
LINE
  5
9C
100
AcDbEntity
  8
bottom_outsideCutPath
  6
ByLayer
 62
  256
370
   -1
100
AcDbLine
 10
-508.2999999999999
 20
540.7
 11
-513.6707107
 21
540.7
  0
LINE
  5
9D
100
AcDbEntity
  8
bottom_outsideCutPath
  6
ByLayer
 62
  256
370
   -1
100
AcDbLine
 10
-516.5999999999999
 20
543.6292893
 11
-516.5999999999999
 21
683.3999999999999
  0
LINE
  5
9E
100
AcDbEntity
  8
bottom_outsideCutPath
  6
ByLayer
 62
  256
370
   -1
100
AcDbLine
 10
-516.5999999999999
 20
683.3999999999999
 11
-606.3707106999998
 21
683.3999999999999
  0
LINE
  5
9F
100
AcDbEntity
  8
bottom_outsideCutPath
  6
ByLayer
 62
  256
370
   -1
100
AcDbLine
 10
-609.3
 20
686.3292893
 11
-609.3
 21
691.7
  0
LINE
  5
A0
100
AcDbEntity
  8
bottom_outsideCutPath
  6
ByLayer
 62
  256
370
   -1
100
AcDbLine
 10
-609.3
 20
691.7
 11
-807.3
 21
691.7
  0
LINE
  5
A1
100
AcDbEntity
  8
bottom_outsideCutPath
  6
ByLayer
 62
  256
370
   -1
100
AcDbLine
 10
-807.3
 20
691.7
 11
-807.3
 21
686.3292893
  0
LINE
  5
A2
100
AcDbEntity
  8
bottom_outsideCutPath
  6
ByLayer
 62
  256
370
   -1
100
AcDbLine
 10
-810.2292892999999
 20
683.3999999999999
 11
-900
 21
683.3999999999999
  0
LINE
  5
A3
100
AcDbEntity
  8
bottom_outsideCutPath
  6
ByLayer
 62
  256
370
   -1
100
AcDbLine
 10
-900
 20
683.3999999999999
 11
-900
 21
543.6292893
  0
LINE
  5
A4
100
AcDbEntity
  8
bottom_outsideCutPath
  6
ByLayer
 62
  256
370
   -1
100
AcDbLine
 10
-900
 20
339.7707107000001
 11
-900
 21
200
  0
ARC
  5
A5
100
AcDbEntity
  8
bottom_outsideCutPath
  6
ByLayer
 62
  256
370
   -1
100
AcDbCircle
 10
-808.7646447
 20
684.8646447000003
 40
2.0713203
100
AcDbArc
 50
225.000002
 51
44.99999799999999
  0
ARC
  5
A6
100
AcDbEntity
  8
bottom_outsideCutPath
  6
ByLayer
 62
  256
370
   -1
100
AcDbCircle
 10
-607.8353552999999
 20
684.8646447000003
 40
2.0713203
100
AcDbArc
 50
135.000002
 51
314.999998
  0
ARC
  5
A7
100
AcDbEntity
  8
bottom_outsideCutPath
  6
ByLayer
 62
  256
370
   -1
100
AcDbCircle
 10
-515.1353552999999
 20
542.1646447000001
 40
2.0713203
100
AcDbArc
 50
135.000002
 51
314.999998
  0
ARC
  5
A8
100
AcDbEntity
  8
bottom_outsideCutPath
  6
ByLayer
 62
  256
370
   -1
100
AcDbCircle
 10
-515.1353552999999
 20
341.2353553
 40
2.0713203
100
AcDbArc
 50
45.00000200000001
 51
224.999998
  0
ARC
  5
A9
100
AcDbEntity
  8
bottom_outsideCutPath
  6
ByLayer
 62
  256
370
   -1
100
AcDbCircle
 10
-607.8353552999999
 20
198.5353553
 40
2.0713203
100
AcDbArc
 50
45.00000200000001
 51
224.999998
  0
ARC
  5
AA
100
AcDbEntity
  8
bottom_outsideCutPath
  6
ByLayer
 62
  256
370
   -1
100
AcDbCircle
 10
-808.7646447
 20
198.5353553
 40
2.0713203
100
AcDbArc
 50
315.000002
 51
134.999998
  0
LINE
  5
AB
100
AcDbEntity
  8
0
  6
ByLayer
 62
  256
370
   -1
100
AcDbLine
 10
-900
 20
543.6292893
 11
-900
 21
339.7707107000001
  0
LINE
  5
AC
100
AcDbEntity
  8
bottom_outsideCutPath
  6
ByLayer
 62
  256
370
   -1
100
AcDbLine
 10
1100
 20
200
 11
1010.2292893
 21
200
  0
LINE
  5
AD
100
AcDbEntity
  8
bottom_outsideCutPath
  6
ByLayer
 62
  256
370
   -1
100
AcDbLine
 10
1007.3
 20
197.0707106999998
 11
1007.3
 21
191.7
  0
LINE
  5
AE
100
AcDbEntity
  8
bottom_outsideCutPath
  6
ByLayer
 62
  256
370
   -1
100
AcDbLine
 10
1007.3
 20
191.7
 11
809.3
 21
191.7
  0
LINE
  5
AF
100
AcDbEntity
  8
bottom_outsideCutPath
  6
ByLayer
 62
  256
370
   -1
100
AcDbLine
 10
809.3
 20
191.7
 11
809.3
 21
197.0707106999998
  0
LINE
  5
B0
100
AcDbEntity
  8
bottom_outsideCutPath
  6
ByLayer
 62
  256
370
   -1
100
AcDbLine
 10
806.3707106999998
 20
200
 11
716.5999999999999
 21
200
  0
LINE
  5
B1
100
AcDbEntity
  8
bottom_outsideCutPath
  6
ByLayer
 62
  256
370
   -1
100
AcDbLine
 10
716.5999999999999
 20
200
 11
716.5999999999999
 21
339.7707107
  0
LINE
  5
B2
100
AcDbEntity
  8
bottom_outsideCutPath
  6
ByLayer
 62
  256
370
   -1
100
AcDbLine
 10
713.6707107
 20
342.6999999999999
 11
708.2999999999998
 21
342.6999999999999
  0
LINE
  5
B3
100
AcDbEntity
  8
bottom_outsideCutPath
  6
ByLayer
 62
  256
370
   -1
100
AcDbLine
 10
708.2999999999998
 20
342.6999999999999
 11
708.2999999999998
 21
540.7
  0
LINE
  5
B4
100
AcDbEntity
  8
bottom_outsideCutPath
  6
ByLayer
 62
  256
370
   -1
100
AcDbLine
 10
708.2999999999998
 20
540.7
 11
713.6707107
 21
540.7
  0
LINE
  5
B5
100
AcDbEntity
  8
bottom_outsideCutPath
  6
ByLayer
 62
  256
370
   -1
100
AcDbLine
 10
716.5999999999999
 20
543.6292893
 11
716.5999999999999
 21
683.3999999999999
  0
LINE
  5
B6
100
AcDbEntity
  8
bottom_outsideCutPath
  6
ByLayer
 62
  256
370
   -1
100
AcDbLine
 10
716.5999999999999
 20
683.3999999999999
 11
806.3707106999998
 21
683.3999999999999
  0
LINE
  5
B7
100
AcDbEntity
  8
bottom_outsideCutPath
  6
ByLayer
 62
  256
370
   -1
100
AcDbLine
 10
809.3
 20
686.3292893
 11
809.3
 21
691.7
  0
LINE
  5
B8
100
AcDbEntity
  8
bottom_outsideCutPath
  6
ByLayer
 62
  256
370
   -1
100
AcDbLine
 10
809.3
 20
691.7
 11
1007.3
 21
691.7
  0
LINE
  5
B9
100
AcDbEntity
  8
bottom_outsideCutPath
  6
ByLayer
 62
  256
370
   -1
100
AcDbLine
 10
1007.3
 20
691.7
 11
1007.3
 21
686.3292893
  0
LINE
  5
BA
100
AcDbEntity
  8
bottom_outsideCutPath
  6
ByLayer
 62
  256
370
   -1
100
AcDbLine
 10
1010.2292893
 20
683.3999999999999
 11
1100
 21
683.3999999999999
  0
LINE
  5
BB
100
AcDbEntity
  8
bottom_outsideCutPath
  6
ByLayer
 62
  256
370
   -1
100
AcDbLine
 10
1100
 20
683.3999999999999
 11
1100
 21
543.6292893
  0
LINE
  5
BC
100
AcDbEntity
  8
bottom_outsideCutPath
  6
ByLayer
 62
  256
370
   -1
100
AcDbLine
 10
1100
 20
339.7707107
 11
1100
 21
200
  0
ARC
  5
BD
100
AcDbEntity
  8
bottom_outsideCutPath
  6
ByLayer
 62
  256
370
   -1
100
AcDbCircle
 10
1008.7646447
 20
684.8646447000003
 40
2.0713203
100
AcDbArc
 50
135.000002
 51
314.999998
  0
ARC
  5
BE
100
AcDbEntity
  8
bottom_outsideCutPath
  6
ByLayer
 62
  256
370
   -1
100
AcDbCircle
 10
807.8353552999999
 20
684.8646447000003
 40
2.0713203
100
AcDbArc
 50
225.000002
 51
44.99999799999999
  0
ARC
  5
BF
100
AcDbEntity
  8
bottom_outsideCutPath
  6
ByLayer
 62
  256
370
   -1
100
AcDbCircle
 10
715.1353552999999
 20
542.1646447000001
 40
2.0713203
100
AcDbArc
 50
225.000002
 51
44.99999799999999
  0
ARC
  5
C0
100
AcDbEntity
  8
bottom_outsideCutPath
  6
ByLayer
 62
  256
370
   -1
100
AcDbCircle
 10
715.1353552999999
 20
341.2353552999999
 40
2.0713203
100
AcDbArc
 50
315.000002
 51
134.999998
  0
ARC
  5
C1
100
AcDbEntity
  8
bottom_outsideCutPath
  6
ByLayer
 62
  256
370
   -1
100
AcDbCircle
 10
807.8353552999999
 20
198.5353553
 40
2.0713203
100
AcDbArc
 50
315.000002
 51
134.999998
  0
ARC
  5
C2
100
AcDbEntity
  8
bottom_outsideCutPath
  6
ByLayer
 62
  256
370
   -1
100
AcDbCircle
 10
1008.7646447
 20
198.5353553
 40
2.0713203
100
AcDbArc
 50
45.00000200000001
 51
224.999998
  0
LINE
  5
C3
100
AcDbEntity
  8
0
  6
ByLayer
 62
  256
370
   -1
100
AcDbLine
 10
1100
 20
543.6292893
 11
1100
 21
339.7707107
  0
LWPOLYLINE
  5
C4
100
AcDbEntity
  8
0
  6
ByLayer
 62
  256
370
   -1
100
AcDbPolyline
 90
    4
 70
    1
 43
0
 10
800
 20
600
 10
1000
 20
600
 10
1000
 20
300
 10
800
 20
300
  0
LINE
  5
C5
100
AcDbEntity
  8
right_outsideCutPath
  6
ByLayer
 62
  256
370
   -1
100
AcDbLine
 10
0.9999999999999432
 20
-97.07071070000006
 11
0.9999999999999432
 21
-91.70000000000005
  0
LINE
  5
C6
100
AcDbEntity
  8
right_outsideCutPath
  6
ByLayer
 62
  256
370
   -1
100
AcDbLine
 10
0.9999999999999432
 20
-91.70000000000005
 11
199.0000000000001
 21
-91.70000000000005
  0
LINE
  5
C7
100
AcDbEntity
  8
right_outsideCutPath
  6
ByLayer
 62
  256
370
   -1
100
AcDbLine
 10
199.0000000000001
 20
-91.70000000000005
 11
199.0000000000001
 21
-97.07071070000006
  0
LINE
  5
C8
100
AcDbEntity
  8
right_outsideCutPath
  6
ByLayer
 62
  256
370
   -1
100
AcDbLine
 10
396.9999999999998
 20
-100
 11
399.9999999999998
 21
-100
  0
LINE
  5
C9
100
AcDbEntity
  8
right_outsideCutPath
  6
ByLayer
 62
  256
370
   -1
100
AcDbLine
 10
-197
 20
-483.4000000000001
 11
-200
 21
-483.4000000000001
  0
LINE
  5
CA
100
AcDbEntity
  8
right_outsideCutPath
  6
ByLayer
 62
  256
370
   -1
100
AcDbLine
 10
-191.7
 20
-387.7707106999999
 11
-191.7
 21
-195.6292893000002
  0
ARC
  5
CB
100
AcDbEntity
  8
right_outsideCutPath
  6
ByLayer
 62
  256
370
   -1
100
AcDbCircle
 10
-193.1646447000001
 20
-194.1646447000001
 40
2.0713203
100
AcDbArc
 50
315.000002
 51
134.999998
  0
ARC
  5
CC
100
AcDbEntity
  8
right_outsideCutPath
  6
ByLayer
 62
  256
370
   -1
100
AcDbCircle
 10
-193.1646447000001
 20
-389.2353553
 40
2.0713203
100
AcDbArc
 50
225.000002
 51
44.99999799999999
  0
ARC
  5
CD
100
AcDbEntity
  8
right_outsideCutPath
  6
ByLayer
 62
  256
370
   -1
100
AcDbCircle
 10
200.4646447000001
 20
-98.53535529999999
 40
2.0713203
100
AcDbArc
 50
135.000002
 51
314.999998
  0
ARC
  5
CE
100
AcDbEntity
  8
right_outsideCutPath
  6
ByLayer
 62
  256
370
   -1
100
AcDbCircle
 10
-0.464644700000008
 20
-98.53535529999999
 40
2.0713203
100
AcDbArc
 50
225.000002
 51
44.99999799999999
  0
LINE
  5
CF
100
AcDbEntity
  8
right_outsideCutPath
  6
ByLayer
 62
  256
370
   -1
100
AcDbLine
 10
409.9999999999999
 20
-483.4000000000008
 11
-210
 21
-483.3999999999999
  0
LINE
  5
D0
100
AcDbEntity
  8
0
  6
ByLayer
 62
  256
370
   -1
100
AcDbLine
 10
-210
 20
-483.3999999999999
 11
-209.9999999999999
 21
-100
  0
LINE
  5
D1
100
AcDbEntity
  8
right_outsideCutPath
  6
ByLayer
 62
  256
370
   -1
100
AcDbLine
 10
-209.9999999999999
 20
-100
 11
-1.929289299999994
 21
-100
  0
LINE
  5
D2
100
AcDbEntity
  8
right_outsideCutPath
  6
ByLayer
 62
  256
370
   -1
100
AcDbLine
 10
201.9292893000001
 20
-100
 11
409.9999999999999
 21
-99.99999999999989
  0
LINE
  5
D3
100
AcDbEntity
  8
0
  6
ByLayer
 62
  256
370
   -1
100
AcDbLine
 10
409.9999999999999
 20
-99.99999999999989
 11
409.9999999999999
 21
-483.4000000000008
  0
LINE
  5
D4
100
AcDbEntity
  8
0
  6
ByLayer
 62
  256
370
   -1
100
AcDbLine
 10
-200.0000000000001
 20
-387.7707106999999
 11
-200.0000000000001
 21
-195.6292893000002
  0
ARC
  5
D5
100
AcDbEntity
  8
right_outsideCutPath
  6
ByLayer
 62
  256
370
   -1
100
AcDbCircle
 10
-198.5353553
 20
-194.1646447000001
 40
2.0713203
100
AcDbArc
 50
45.00000200000001
 51
224.999998
  0
ARC
  5
D6
100
AcDbEntity
  8
right_outsideCutPath
  6
ByLayer
 62
  256
370
   -1
100
AcDbCircle
 10
-198.5353553
 20
-389.2353553
 40
2.0713203
100
AcDbArc
 50
135.000002
 51
314.999998
  0
LINE
  5
D7
100
AcDbEntity
  8
0
  6
ByLayer
 62
  256
370
   -1
100
AcDbLine
 10
-197.0707105164835
 20
-390.6999997767621
 11
-194.6292892790137
 21
-390.6999999812651
  0
LINE
  5
D8
100
AcDbEntity
  8
0
  6
ByLayer
 62
  256
370
   -1
100
AcDbLine
 10
-197.0707107209864
 20
-192.700000018735
 11
-194.6292892790137
 21
-192.700000018735
  0
LINE
  5
D9
100
AcDbEntity
  8
right_outsideCutPath
  6
ByLayer
 62
  256
370
   -1
100
AcDbLine
 10
391.7
 20
-387.7707106999999
 11
391.7
 21
-195.6292893000002
  0
ARC
  5
DA
100
AcDbEntity
  8
right_outsideCutPath
  6
ByLayer
 62
  256
370
   -1
100
AcDbCircle
 10
393.1646447000001
 20
-194.1646447000001
 40
2.0713203
100
AcDbArc
 50
45.00000200000001
 51
224.999998
  0
ARC
  5
DB
100
AcDbEntity
  8
right_outsideCutPath
  6
ByLayer
 62
  256
370
   -1
100
AcDbCircle
 10
393.1646447000001
 20
-389.2353553
 40
2.0713203
100
AcDbArc
 50
135.000002
 51
314.999998
  0
LINE
  5
DC
100
AcDbEntity
  8
0
  6
ByLayer
 62
  256
370
   -1
100
AcDbLine
 10
399.9999999999999
 20
-387.7707106999999
 11
399.9999999999999
 21
-195.6292893000002
  0
ARC
  5
DD
100
AcDbEntity
  8
right_outsideCutPath
  6
ByLayer
 62
  256
370
   -1
100
AcDbCircle
 10
398.5353552999997
 20
-194.1646447000001
 40
2.0713203
100
AcDbArc
 50
315.000002
 51
134.999998
  0
ARC
  5
DE
100
AcDbEntity
  8
right_outsideCutPath
  6
ByLayer
 62
  256
370
   -1
100
AcDbCircle
 10
398.5353552999997
 20
-389.2353553
 40
2.0713203
100
AcDbArc
 50
225.000002
 51
44.99999799999999
  0
LINE
  5
DF
100
AcDbEntity
  8
0
  6
ByLayer
 62
  256
370
   -1
100
AcDbLine
 10
397.0707105164835
 20
-390.6999997767621
 11
394.6292892790136
 21
-390.6999999812651
  0
LINE
  5
E0
100
AcDbEntity
  8
0
  6
ByLayer
 62
  256
370
   -1
100
AcDbLine
 10
397.0707107209864
 20
-192.700000018735
 11
394.6292892790136
 21
-192.700000018735
  0
LWPOLYLINE
  5
E1
100
AcDbEntity
  8
0
  6
ByLayer
 62
  256
370
   -1
100
AcDbPolyline
 90
    8
 70
    1
 43
0
 10
-32
 20
-400
 10
312
 20
-400
 42
0.414213562373095
 10
320
 20
-392
 10
320
 20
-178
 42
0.414213562373095
 10
312
 20
-170
 10
-32
 20
-170
 42
0.414213562373095
 10
-40
 20
-178
 10
-40
 20
-392
 42
0.414213562373095
  0
LWPOLYLINE
  5
E2
100
AcDbEntity
  8
0
  6
ByLayer
 62
  256
370
   -1
100
AcDbPolyline
 90
    4
 70
    1
 43
0
 10
-100
 20
630
 10
310
 20
630
 10
310
 20
280
 10
-100
 20
280
  0
LINE
  5
E3
100
AcDbEntity
  8
0
  6
ByLayer
 62
  256
370
   -1
100
AcDbLine
 10
-180
 20
968.3
 11
-140
 21
968.3
  0
LINE
  5
E4
100
AcDbEntity
  8
0
  6
ByLayer
 62
  256
370
   -1
100
AcDbLine
 10
-140
 20
968.3
 11
-140
 21
960
  0
LINE
  5
E5
100
AcDbEntity
  8
0
  6
ByLayer
 62
  256
370
   -1
100
AcDbLine
 10
-180
 20
968.3
 11
-180
 21
960
  0
LINE
  5
E6
100
AcDbEntity
  8
0
  6
CONTINUOUS
 62
    7
370
    0
100
AcDbLine
 10
-110
 20
960
 11
-110
 21
860
  0
LINE
  5
E7
100
AcDbEntity
  8
0
  6
CONTINUOUS
 62
    7
370
    0
100
AcDbLine
 10
-110
 20
860
 11
-210
 21
860
  0
ARC
  5
E8
100
AcDbEntity
  8
0
  6
ByLayer
 62
  256
370
   -1
100
AcDbCircle
 10
-183
 20
960
 40
3
100
AcDbArc
 50
180
 51
0
  0
LINE
  5
E9
100
AcDbEntity
  8
0
  6
ByLayer
 62
  256
370
   -1
100
AcDbLine
 10
-210
 20
960
 11
-186.0000000000304
 21
960
  0
ARC
  5
EA
100
AcDbEntity
  8
0
  6
ByLayer
 62
  256
370
   -1
100
AcDbCircle
 10
-137
 20
960
 40
3
100
AcDbArc
 50
180
 51
0
  0
LINE
  5
EB
100
AcDbEntity
  8
0
  6
ByLayer
 62
  256
370
   -1
100
AcDbLine
 10
-133.999999999953
 20
960
 11
-110
 21
960
  0
LINE
  5
EC
100
AcDbEntity
  8
0
  6
ByLayer
 62
  256
370
   -1
100
AcDbLine
 10
-218.3
 20
930.0000000000002
 11
-218.3
 21
890.0000000000002
  0
LINE
  5
ED
100
AcDbEntity
  8
0
  6
ByLayer
 62
  256
370
   -1
100
AcDbLine
 10
-218.3
 20
890.0000000000002
 11
-210
 21
890
  0
LINE
  5
EE
100
AcDbEntity
  8
0
  6
ByLayer
 62
  256
370
   -1
100
AcDbLine
 10
-218.3
 20
930.0000000000002
 11
-210
 21
930
  0
ARC
  5
EF
100
AcDbEntity
  8
0
  6
ByLayer
 62
  256
370
   -1
100
AcDbCircle
 10
-210
 20
933
 40
3
100
AcDbArc
 50
270
 51
90
  0
LINE
  5
F0
100
AcDbEntity
  8
0
  6
ByLayer
 62
  256
370
   -1
100
AcDbLine
 10
-210
 20
960
 11
-210.0000000000001
 21
936.0000000000305
  0
ARC
  5
F1
100
AcDbEntity
  8
0
  6
ByLayer
 62
  256
370
   -1
100
AcDbCircle
 10
-210
 20
887
 40
3
100
AcDbArc
 50
270
 51
90
  0
LINE
  5
F2
100
AcDbEntity
  8
0
  6
ByLayer
 62
  256
370
   -1
100
AcDbLine
 10
-210.0000000000001
 20
883.9999999999532
 11
-210
 21
860
  0
LINE
  5
F3
100
AcDbEntity
  8
0
  6
ByLayer
 62
  256
370
   -1
100
AcDbLine
 10
-179.9999999999935
 20
1054.15
 11
-180
 21
1045.85
  0
LINE
  5
F4
100
AcDbEntity
  8
0
  6
ByLayer
 62
  256
370
   -1
100
AcDbLine
 10
-140
 20
1045.85
 11
-140
 21
1054.15
  0
ARC
  5
F5
100
AcDbEntity
  8
0
  6
ByLayer
 62
  256
370
   -1
100
AcDbCircle
 10
-177
 20
1054.15
 40
3
100
AcDbArc
 50
0
 51
180
  0
ARC
  5
F6
100
AcDbEntity
  8
0
  6
ByLayer
 62
  256
370
   -1
100
AcDbCircle
 10
-177
 20
1045.85
 40
3
100
AcDbArc
 50
180
 51
0
  0
LINE
  5
F7
100
AcDbEntity
  8
0
  6
ByLayer
 62
  256
370
   -1
100
AcDbLine
 10
-140.0000000000065
 20
1054.15
 11
-140
 21
1045.85
  0
ARC
  5
F8
100
AcDbEntity
  8
0
  6
ByLayer
 62
  256
370
   -1
100
AcDbCircle
 10
-143
 20
1054.15
 40
3
100
AcDbArc
 50
0
 51
180
  0
ARC
  5
F9
100
AcDbEntity
  8
0
  6
ByLayer
 62
  256
370
   -1
100
AcDbCircle
 10
-143
 20
1045.85
 40
3
100
AcDbArc
 50
180
 51
0
  0
LINE
  5
FA
100
AcDbEntity
  8
0
  6
ByLayer
 62
  256
370
   -1
100
AcDbLine
 10
-146
 20
1054.15
 11
-174
 21
1054.15
  0
LINE
  5
FB
100
AcDbEntity
  8
0
  6
ByLayer
 62
  256
370
   -1
100
AcDbLine
 10
-146
 20
1045.85
 11
-174
 21
1045.85
  0
LINE
  5
FC
100
AcDbEntity
  8
0
  6
ByLayer
 62
  256
370
   -1
100
AcDbLine
 10
-570.75
 20
613.3999999999999
 11
-562.45
 21
613.3999999999999
  0
ARC
  5
FD
100
AcDbEntity
  8
0
  6
ByLayer
 62
  256
370
   -1
100
AcDbCircle
 10
-562.45
 20
650.3999999999999
 40
3
100
AcDbArc
 50
270
 51
90
  0
ARC
  5
FE
100
AcDbEntity
  8
0
  6
ByLayer
 62
  256
370
   -1
100
AcDbCircle
 10
-570.7499999999998
 20
650.3999999999999
 40
3
100
AcDbArc
 50
90
 51
270
  0
ARC
  5
FF
100
AcDbEntity
  8
0
  6
ByLayer
 62
  256
370
   -1
100
AcDbCircle
 10
-562.45
 20
616.3999999999999
 40
3
100
AcDbArc
 50
270
 51
90
  0
ARC
  5
100
100
AcDbEntity
  8
0
  6
ByLayer
 62
  256
370
   -1
100
AcDbCircle
 10
-570.7499999999998
 20
616.3999999999999
 40
3
100
AcDbArc
 50
90
 51
270
  0
LINE
  5
101
100
AcDbEntity
  8
0
  6
ByLayer
 62
  256
370
   -1
100
AcDbLine
 10
-562.45
 20
619.3999999999999
 11
-562.45
 21
647.3999999999999
  0
LINE
  5
102
100
AcDbEntity
  8
0
  6
ByLayer
 62
  256
370
   -1
100
AcDbLine
 10
-570.7499999999998
 20
619.3999999999999
 11
-570.7499999999998
 21
647.3999999999999
  0
CIRCLE
  5
103
100
AcDbEntity
  8
0
  6
ByLayer
 62
  256
370
   -1
100
AcDbCircle
 10
-160
 20
910
 40
35
  0
LINE
  5
104
100
AcDbEntity
  8
0
  6
ByLayer
 62
  256
370
   -1
100
AcDbLine
 10
-470.0000000000001
 20
908.2999999999998
 11
-430.0000000000001
 21
908.2999999999998
  0
LINE
  5
105
100
AcDbEntity
  8
0
  6
ByLayer
 62
  256
370
   -1
100
AcDbLine
 10
-430.0000000000001
 20
908.2999999999998
 11
-430.0000000000001
 21
899.9999999999999
  0
LINE
  5
106
100
AcDbEntity
  8
0
  6
ByLayer
 62
  256
370
   -1
100
AcDbLine
 10
-470.0000000000001
 20
908.2999999999998
 11
-470.0000000000001
 21
899.9999999999999
  0
LINE
  5
107
100
AcDbEntity
  8
0
  6
CONTINUOUS
 62
    7
370
    0
100
AcDbLine
 10
-400.0000000000001
 20
899.9999999999999
 11
-400.0000000000001
 21
799.9999999999999
  0
LINE
  5
108
100
AcDbEntity
  8
0
  6
CONTINUOUS
 62
    7
370
    0
100
AcDbLine
 10
-400.0000000000001
 20
799.9999999999999
 11
-500.0000000000001
 21
799.9999999999999
  0
ARC
  5
109
100
AcDbEntity
  8
0
  6
ByLayer
 62
  256
370
   -1
100
AcDbCircle
 10
-473.0000000000001
 20
899.9999999999999
 40
3
100
AcDbArc
 50
180
 51
0
  0
LINE
  5
10A
100
AcDbEntity
  8
0
  6
ByLayer
 62
  256
370
   -1
100
AcDbLine
 10
-500.0000000000001
 20
899.9999999999999
 11
-476.0000000000304
 21
899.9999999999999
  0
ARC
  5
10B
100
AcDbEntity
  8
0
  6
ByLayer
 62
  256
370
   -1
100
AcDbCircle
 10
-427.0000000000001
 20
899.9999999999999
 40
3
100
AcDbArc
 50
180
 51
0
  0
LINE
  5
10C
100
AcDbEntity
  8
0
  6
ByLayer
 62
  256
370
   -1
100
AcDbLine
 10
-423.9999999999531
 20
899.9999999999999
 11
-400.0000000000001
 21
899.9999999999999
  0
LINE
  5
10D
100
AcDbEntity
  8
0
  6
ByLayer
 62
  256
370
   -1
100
AcDbLine
 10
-508.3
 20
870.0000000000001
 11
-508.3
 21
830.0000000000001
  0
LINE
  5
10E
100
AcDbEntity
  8
0
  6
ByLayer
 62
  256
370
   -1
100
AcDbLine
 10
-508.3
 20
830.0000000000001
 11
-500.0000000000001
 21
829.9999999999999
  0
LINE
  5
10F
100
AcDbEntity
  8
0
  6
ByLayer
 62
  256
370
   -1
100
AcDbLine
 10
-508.3
 20
870.0000000000001
 11
-500.0000000000001
 21
869.9999999999999
  0
ARC
  5
110
100
AcDbEntity
  8
0
  6
ByLayer
 62
  256
370
   -1
100
AcDbCircle
 10
-500.0000000000001
 20
872.9999999999999
 40
3
100
AcDbArc
 50
270
 51
90
  0
LINE
  5
111
100
AcDbEntity
  8
0
  6
ByLayer
 62
  256
370
   -1
100
AcDbLine
 10
-500.0000000000001
 20
899.9999999999999
 11
-500.0000000000002
 21
876.0000000000304
  0
ARC
  5
112
100
AcDbEntity
  8
0
  6
ByLayer
 62
  256
370
   -1
100
AcDbCircle
 10
-500.0000000000001
 20
826.9999999999999
 40
3
100
AcDbArc
 50
270
 51
90
  0
LINE
  5
113
100
AcDbEntity
  8
0
  6
ByLayer
 62
  256
370
   -1
100
AcDbLine
 10
-500.0000000000002
 20
823.999999999953
 11
-500.0000000000001
 21
799.9999999999999
  0
CIRCLE
  5
114
100
AcDbEntity
  8
0
  6
ByLayer
 62
  256
370
   -1
100
AcDbCircle
 10
-450.0000000000001
 20
849.9999999999999
 40
35
  0
LINE
  5
115
100
AcDbEntity
  8
0
  6
ByLayer
 62
  256
370
   -1
100
AcDbLine
 10
-570.1143081519233
 20
653.3189072968796
 11
-561.816166286271
 21
653.4945249996024
  0
LINE
  5
116
100
AcDbEntity
  8
0
  6
ByLayer
 62
  256
370
   -1
100
AcDbLine
 10
-570.75
 20
270.0000000000002
 11
-562.45
 21
270.0000000000002
  0
ARC
  5
117
100
AcDbEntity
  8
0
  6
ByLayer
 62
  256
370
   -1
100
AcDbCircle
 10
-562.45
 20
233.0000000000002
 40
3
100
AcDbArc
 50
270
 51
90
  0
ARC
  5
118
100
AcDbEntity
  8
0
  6
ByLayer
 62
  256
370
   -1
100
AcDbCircle
 10
-570.7499999999998
 20
233.0000000000002
 40
3
100
AcDbArc
 50
90
 51
270
  0
ARC
  5
119
100
AcDbEntity
  8
0
  6
ByLayer
 62
  256
370
   -1
100
AcDbCircle
 10
-562.45
 20
267.0000000000002
 40
3
100
AcDbArc
 50
270
 51
90
  0
ARC
  5
11A
100
AcDbEntity
  8
0
  6
ByLayer
 62
  256
370
   -1
100
AcDbCircle
 10
-570.7499999999998
 20
267.0000000000002
 40
3
100
AcDbArc
 50
90
 51
270
  0
LINE
  5
11B
100
AcDbEntity
  8
0
  6
ByLayer
 62
  256
370
   -1
100
AcDbLine
 10
-562.45
 20
264.0000000000002
 11
-562.45
 21
236.0000000000002
  0
LINE
  5
11C
100
AcDbEntity
  8
0
  6
ByLayer
 62
  256
370
   -1
100
AcDbLine
 10
-570.7499999999998
 20
264.0000000000002
 11
-570.7499999999998
 21
236.0000000000002
  0
LINE
  5
11D
100
AcDbEntity
  8
0
  6
ByLayer
 62
  256
370
   -1
100
AcDbLine
 10
-570.1143081519233
 20
230.0810927031205
 11
-561.816166286271
 21
229.9054750003977
  0
LINE
  5
11E
100
AcDbEntity
  8
0
  6
ByLayer
 62
  256
370
   -1
100
AcDbLine
 10
-179.9999999999935
 20
-154.1499999999999
 11
-180
 21
-145.8499999999999
  0
LINE
  5
11F
100
AcDbEntity
  8
0
  6
ByLayer
 62
  256
370
   -1
100
AcDbLine
 10
-140
 20
-145.8499999999999
 11
-140
 21
-154.1499999999999
  0
ARC
  5
120
100
AcDbEntity
  8
0
  6
ByLayer
 62
  256
370
   -1
100
AcDbCircle
 10
-177
 20
-154.1499999999999
 40
3
100
AcDbArc
 50
180
 51
0
  0
ARC
  5
121
100
AcDbEntity
  8
0
  6
ByLayer
 62
  256
370
   -1
100
AcDbCircle
 10
-177
 20
-145.8500000000001
 40
3
100
AcDbArc
 50
0
 51
180
  0
LINE
  5
122
100
AcDbEntity
  8
0
  6
ByLayer
 62
  256
370
   -1
100
AcDbLine
 10
-140.0000000000065
 20
-154.1499999999999
 11
-140
 21
-145.8499999999999
  0
ARC
  5
123
100
AcDbEntity
  8
0
  6
ByLayer
 62
  256
370
   -1
100
AcDbCircle
 10
-143
 20
-154.1499999999999
 40
3
100
AcDbArc
 50
180
 51
0
  0
ARC
  5
124
100
AcDbEntity
  8
0
  6
ByLayer
 62
  256
370
   -1
100
AcDbCircle
 10
-143
 20
-145.8500000000001
 40
3
100
AcDbArc
 50
0
 51
180
  0
LINE
  5
125
100
AcDbEntity
  8
0
  6
ByLayer
 62
  256
370
   -1
100
AcDbLine
 10
-146
 20
-154.1499999999999
 11
-174
 21
-154.1499999999999
  0
LINE
  5
126
100
AcDbEntity
  8
0
  6
ByLayer
 62
  256
370
   -1
100
AcDbLine
 10
-146
 20
-145.8500000000001
 11
-174
 21
-145.8500000000001
  0
ENDSEC
  0
SECTION
  2
OBJECTS
  0
DICTIONARY
  5
C
330
0
100
AcDbDictionary
281
    1
  3
ACAD_GROUP
350
D
  0
DICTIONARY
  5
D
330
C
100
AcDbDictionary
281
    1
  0
ENDSEC
  0
EOF
